Follow Me tab
Difficulty: Novice / Version: 1
Tranpose
[Intro]-------------------------------------------------------------------------------
                             Follow Me - E-girls
-------------------------------------------------------------------------------
Tabbed by: imspazzen
Tuning: E Standard

Song is in G Major.


Intro

   Gtr. 1 (light dist.)
e|----------------------------------|---------------------------------|
B|----------------------------------|---------------------------------|
G|------4-----5-----7-----5-----4---|-----4-----5-----7-----5-----4---|
D|--5-5---5-5---5-5---5-5---5-5---5-|-5-5---5-5---5-5---5-5---5-5---5-|
A|----------------------------------|---------------------------------|
E|----------------------------------|---------------------------------|
 | P.M. - - - - - - - - - - - - - - - - - - - - - - - - - - - - - - -|
 |
 | Gtr. 2 (light dist.)
e|----------------------------------|-----7-----8-----10----8-----7---|
B|----------------------------------|-8-8---8-8---8-8---8-8---8-8---8-|
G|----------------------------------|---------------------------------|
D|----------------------------------|---------------------------------|
A|----------------------------------|---------------------------------|
E|----------------------------------|---------------------------------|
                                      P.M. - - - - - - - - - - - - - |



Verse

   Gtr. 1
e|---------------------------------|---------------------------------|
B|---------------------------------|---------------------------------|
G|---------------------------------|---------------------------------|
D|-5-5-5-5-5-5-5-5-4-4-4-4-4-4-4-4-|-2-2-2-2-2-2-2-2-----------------|
A|---------------------------------|-----------------5-5-5-5-5-5-5-5-|
E|---------------------------------|---------------------------------|
 | P.M. - - - - - - - - - - - - - - - - - - - - - - - - - - - - - - |
 |
 |  Gtr. 2 (vocal and other melodies)
e|---------------------------------|-----------------------7---------|
B|---------10--8-----------10--8---|-------8-10--8-10--10----10--8---|
G|-------7---------------7---------|---------------------------------|
D|---------------------------------|---------------------------------|
A|---------------------------------|---------------------------------|
E|---------------------------------|---------------------------------|


e|---------------------------------|---------------------------------|
B|---------------------------------|---------------------------------|
G|---------------------------------|---------------------------------|
D|---------------------------------|---------------------------------|
A|-3-3-3-3-3-3-3-3-2-2-2-2-2-2-2-2-|-0-0-0-0-0-0-0-0-5-5-5-5-5-5-5-5-|
E|---------------------------------|---------------------------------|
 | P.M. - - - - - - - - - - - - - - - - - - - - - - - - - - - - - - |
 |
e|---------------------------------|----------7----------------------|
B|---------10--8-----------10--8---|-------8----10--8-8--8--8-8---8--|
G|-------7---------------7---------|---------------------------------|
D|---------------------------------|---------------------------------|
A|---------------------------------|---------------------------------|
E|---------------------------------|---------------------------------|

(Repeat Verse)


Pre-Chorus

   Gtr. 1
e|-----------------------0---------|---------------------------------|
B|-------3-------------------------|-------1---------------3------3--|
G|-----2-------------4-------------|-----0-------------2-------------|
D|---4-------------2---5-----------|---2-------------0---0------0----|
A|-2-------------------------------|-3-------------------------------|
E|---------------------------------|---------------------------------|
 |
 |
 | Gtr. 2
e|-7-------------------------------|-7-------------------------------|
B|---10-8-8----8-8---8---8-8-------|---10-8-8----8-8---8---8-8-------|
G|----------------------------7----|----------------------------7----|
D|---------------------------------|---------------------------------|
A|---------------------------------|---------------------------------|
E|---------------------------------|---------------------------------|


e|-----------------------0---------|---------------------------------|
B|-------3------3-------------0----|-------1-------------------------|
G|-----2------2------4-------------|-----0----0------7\--------------|
D|---4-------------2---5-----------|---2-------------7\--------------|
A|-2-------------------------------|-3---------------5\--------------|
E|---------------------------------|---------------------------------|
 |
 |
e|-7-------------------------------|---------------------------------|
B|---10-8-8----8-8---8---8-8-------|-8--8-8\7----------------8--10\8-|
G|----------------------------7----|---------------------7-----------|
D|---------------------------------|---------------------------------|
A|---------------------------------|---------------------------------|
E|---------------------------------|---------------------------------|



Chorus 1

   Gtr. 1 (This guitar is doubled by an acoustic during both Chorus 
           1 and 2. There's also a strum pattern here but I couldn't
           quite make it out so just strum based on feel.)
e|-3--------------2----------------|-0--------------0----------------|
B|-3--------------3----------------|-0--------------3----------------|
G|-4--------------2----------------|-0--------------2----------------|
D|-5--------------4----------------|-2--------------0----------------|
A|---------------------------------|---------------------------------|
E|---------------------------------|---------------------------------|
 |
 |
 | Gtr. 2
e|----7-7-----7-7-----7-7-----7-7--|---------------------------------|
B|-10------10------10------10------|-10-----8-----------8--7---------|
G|---------------------------------|--------------------------7-9----|
D|---------------------------------|---------------------------------|
A|---------------------------------|---------------------------------|
E|---------------------------------|---------------------------------|


e|---------------------------------|---------------------------------|
B|-1--------------3----------------|----------------3----------------|
G|-0--------------0----------------|-2--------------2----------------|
D|-2--------------0----------------|-2--------------0----------------|
A|-3--------------2----------------|-0-------------------------------|
E|---------------------------------|---------------------------------|
 |
 |
e|---------------------------------|---------------------------------|
B|---8-----10-8-------8--7---------|---8-----10-8-----------8--10\8--|
G|------7-------------------7-9----|------7--------------7-----------|
D|---------------------------------|---------------------------------|
A|---------------------------------|---------------------------------|
E|---------------------------------|---------------------------------|
                                      ^
                                      |
Repeat Chorus 1 (on repeat, replace this bar 
                 with this one)
                       |  
                       v      

e|---------------------------------|
B|----------------3-------4--------|
G|-2--------------2-------3--------|
D|-2--------------0-------1--------|     
A|-0-------------------------------|
E|---------------------------------|
 |                                     "alternate ending"
 |
e|---------------------------------|
B|---8-----10-8--------8--7--10-7--|
G|------7--------------------------|
D|---------------------------------|
A|---------------------------------|
E|---------------------------------|



Chorus 2

  Gtr. 1
e|---------------------------------|---------------------------------|
B|-5--------------4----------------|-3-------------------------------|
G|-4--------------3----------------|-2--------------6----------------|
D|-2--------------1----------------|-0--------------6----------------|
A|---------------------------------|----------------4----------------|
E|---------------------------------|---------------------------------|
 |
 |
 | Gtr. 2
e|---------------------------------|-------------------7-------------|
B|-7---8-8-------7-7---8-8---------|-7---8-8---10-8-10-----10---8----|
G|---------------------------------|---------------------------------|
D|---------------------------------|---------------------------------|
A|---------------------------------|---------------------------------|
E|---------------------------------|---------------------------------|


e|---------------------------------|
B|---------------------------------|
G|-5--------------7\---------------|
D|-5--------------7\---------------|
A|-3--------------5\---------------|
E|---------------------------------|
 |
 |
e|-------------------7-------------|
B|----8-8---------8-----10---8-8---|
G|-7-------------------------------|
D|---------------------------------|
A|---------------------------------|
E|---------------------------------|

(Play Intro)
(Play Verse twice)
(Play Chorus 1 twice)
(Play Chorus 2, on last bar Gtr. 1 plays chord through the whole bar; don't slide)


Bridge

   Gtr. 1
e|---------------------------------|----------------0----------------|
B|-1--------------3----------------|-3--------------0----------------|
G|-0--------------2----------------|-0--------------0----------------|
D|-2--------------0----------------|-0--------------2----------------|
A|-3-------------------------------|-2-------------------------------|
E|---------------------------------|---------------------------------|
 |
 |
 | Gtr. 2
e|---------------------------------|---------------------------------|
B|---8-----10-8------8-----10-8----|---8-----10-8---8--8--88888-8----|
G|------7---------------7----------|------7--------------------------|
D|---5------7-5--------------------|---5------7-5---5--5--55555-5----|
A|------5--------------------------|------5--------------------------|
E|---------------------------------|---------------------------------|


e|---------------------------------|----------------0----------------|
B|----------------3----------------|----------------3----------------|
G|-2--------------0----------------|-0--------------2----------------|
D|-2--------------0----------------|-2--------------0----------------|
A|-0--------------2----------------|-3-------------------------------|
E|---------------------------------|---------------------------------|
 |
 |
e|---------------------------------|---------------------------------|
B|---8-----10-8---8---8---8--8\----|---8-----10-8---8----8----8------|
G|------7--------------------------|------7--------------------------|
D|---5------7-5---5---5---5--5\----|---5-----7--5------5----5----5---|
A|------5--------------------------|------5--------------------------|
E|---------------------------------|---------------------------------|


e|---------------------------------|
B|---------------------------------|
G|-7\------------------------------|
D|-7\------------------------------|
A|-5\------------------------------|
E|---------------------------------|
 |
 |
e|---------------------------------|
B|------------------------8--10\8--|
G|---------------------7-----------|
D|---------------------------------|
A|---------------------------------|
E|---------------------------------|


"Acapella" Chorus

Gtr. 3 (Acoustic)
e|-------3--------------2--------|-------0---------------0--------|
B|-----3----3---------3----3-----|-----0----0----------3----3-----|
G|---4--------4-----2--------2---|---0---------0-----2--------2---|
D|-5--------------4--------------|-2---------------0--------------|
A|-------------------------------|--------------------------------|
E|-------------------------------|--------------------------------|
 |
 |
 | Gtr. 2
e|----7-7-----7-7-----7-7-----7-7|---------------------------------|
B|-10------10------10------10----|-10-----8-----------8--7---------|
G|-------------------------------|--------------------------7-9----|
D|-------------------------------|---------------------------------|
A|-------------------------------|---------------------------------|
E|-------------------------------|---------------------------------|

                                                  Gtr. 1
e|-------------------------------|---------------------------------|
B|-------0--------------3--------|-------1--------3-3--------------|
G|-----0----0---------0----0-----|-----2----2-----2-2--------------|
D|---2--------2-----0--------0---|---2--------2---0-0--------------|
A|-3--------------2--------------|-0-------------------------------|
E|-------------------------------|---------------------------------|
 |
 |
e|-------------------------------|---------------------------------|
B|--------------------8--7-------|-------------------------8--10\8-|
G|-------------------------7-9---|----------------------7----------|
D|-------------------------------|---------------------------------|
A|-------------------------------|---------------------------------|
E|-------------------------------|---------------------------------|


(Play Chorus 1 once (with alt. ending))
(Play Chorus 2)
(Play Chorus 1 once (NO alt. ending))


Ending

 Gtr. 1
e|----------------------------------|---------------------------------|
B|----------------------------------|---------------------------------|
G|------4-----5-----7-----5-----4---|-----4-----5-----7-----5-----4---|
D|--5-5---5-5---5-5---5-5---5-5---5-|-5-5---5-5---5-5---5-5---5-5---5-|
A|----------------------------------|---------------------------------|
E|----------------------------------|---------------------------------|
 | P.M. - - - - - - - - - - - - - - - - - - - - - - - - - - - - - - -|
 |
 | Gtr. 2
e|-----7-----8-----10-----8-----7---|-----7-----8-----10----8-----7---|
B|-8-8---8-8---8-8----8-8---8-8---8-|-8-8---8-8---8-8---8-8---8-8---8-|
G|----------------------------------|---------------------------------|
D|----------------------------------|---------------------------------|
A|----------------------------------|---------------------------------|
E|----------------------------------|---------------------------------|
   P.M. - - - - - - - - - - - - - - - - - - - - - - - - - - - - - - -|



Note: There are some slight variations in vocal melody upon repeats but they 
are minimal and can all be found in the G Major scale.

Please be sure to rate/comment!

Legend:

P.M. = Palm Mute
\ = slide down
Video Not Available