Lift Your Name Up
Difficulty: Novice / Version: 1
Tranpose
Planetshakers - Lift your name up

Hey everyone, I haven't seen this tab anywhere on this site so I figured I'd
try my best to write it out for you so please don't criticize but if you
have any suggestions on the chords please leave a comment.

Chords in the song. Make sure to pay attention to the difference in different (E)'s

   E  E  A  D  F#m
e|------------------------------------------------------------------|
B|------------------------------------------------------------------|
G|-1--9-----7-------------------------------------------------------|
D|-2--9--7--7---4---------------------------------------------------|
A|-2--7--7--5---4---------------------------------------------------|
E|-------5------2---------------------------------------------------|



For the intro the tab is 


e|------------------------------------------------------------------|
B|------------------------------------------------------------------|
G|------------------------------------------------------------------|
D|-9-9-9-11-11-11-9-9-9-11-11-11-9-7--------------------------------| x3
A|------------------------------------------------------------------|
E|------------------------------------------------------------------|

e|------------------------------------------------------------------|
B|------------------------------------------------------------------|
G|------------------------------------------------------------------|
D|-7-7-7-7--6-6-6-6-------------------------------------------------|
A|------------------------------------------------------------------|
E|------------------------------------------------------------------|
(repeat as many times desired)

Intro
A E D F#m E

Verse 1

 A                  E
I'm gonna lift You up
                 D  
Higher than all things
              D
Above every name
      A                  E
Cause You are my God and King
              D         
You made everything
               D
So I give You all my praise



Pre chorus (I'm not to sure what the chords are here so I found these somewhere else)

F#m E   A     D
I'm gonna lift Your name up
F#m   E    A    D        D
So all the world can see You live in me



Chorus

A
Shine Your light in me
E
So all the world will see
    D 
The power of Your majesty
F#m          E
Jesus I will lift Your name up

A
Let Your Spirit fall on me
E
Now so that all the
      D
World will know that You're my God
F#m          E
Jesus I will lift Your name up


Verse 2 (same as Verse 1)

I'm so in love with You
Everything You do
Everything You say

Cause you never let me go
You're always in control
And I give You all my praise

Pre chorus x1
Chorus x 1

Bridge 
A           
Jesus I will lift
     E
Your name up    
                D
Higher than all other names
           F#m      
You are my God
           E
You are my King
You are my 

Chorus/End
Video Not Available